t y

(/) Slide Up  (\) Slide Down  (h) Hammer On  (p) Pull Off  (b) Bend (r) Release (v) Vibrato

E|--7---7--7--5--7--7--7--5--8--8--8-----7--------5--3-----2-----------------------------------
B|--8---8--8-----8--8--8--7--5--5--5--7--8--8-----3--3-----------3--------3-----------3--------
G|---------------------------5-----------7-----7--2-----0-----0-----0-----------0--------------
D|--9------------------------------------0--------0--------------------2-----2-----2-----2-----
A|--10--------9--------------5--------------------------------------3-----------3--------------
E|---------------0-----------------------------------------------------------------------------



E|----------------------------------------------------------------------------------------
B|--------3-----0-----------------3-----------3-----------3-----3--1/0--------------------
G|--0--------------2--0-----0-----------0-----------0-------------------2--------0--------
D|-----2-----2-----------0-----0-----0-----0-----0-----0-----0-------------0--2--------2--
A|--3-----------3-----------2-----------2-----------2-----------2-------------------2-----
E|-------------------------------------------------------------------------0--------------



E|-------------------------------------------------------------3--------0-----0--------2-----
B|--3--1--0-----------0----------------------------------3-----3-----3--3-----3-----3--3-----
G|-----------2--2--------------------0\2-----0-----0--0--0--0--0--0--0-----0--0--0--0--0-----
D|--------------0--0--------0--4----------0-----2--2--2--2--2-----2--------2-----2-----0-----
A|-----------------------0-------------------0--------------------------0--------------------
E|--0--------------------------2--2----------------------------------------------------------



E|-----2-----3-----3--------3-------3----------0----------0--------------0--------------
B|--3--3-----3--3--3-----3--3--3----3-----3----3----------0--3--0--------------------3--
G|--0--0-----0--0--0--0--0--0--0----0--0--0----2----------0-----------------------------
D|--------0--0--------0-----0----------0-------0----------------------------------------
A|--------0-----------------------------------------------------------2--------2--------
E|-----------3--------------------------------------------3--------3-----3--3-----3-----



E|------------------------------------------0----------------------------------------------
B|--------0-----0--3/0--------0--3\0--------------------3-------------1-----------0-----2--
G|--2--0--0--0-----0----------0----------------------------2--0--0/2-----0--------------0--
D|--------0--0---------------------------------------------0----------------2--------2-----
A|-------------------------2-------------2--------2-------------------3--------3-----------
E|--2-----------0-------0-----0-------0-----0--0-----0-------------------------------------



E|-----0-------------
B|--0--0-------------
G|--0--0-----0--0/2--
D|--------2----------
A|--------------3----
E|-------------------
http://www.guitartabcreator.com
Guitar Tab Creator is intended to store guitar tab created through the tool. It currently does not support in-line text editing. Any text you place in here will be lost. If you need to comment on your tab, please use the "Tab Notes" section located below.