Debbies Whiskey Bar

(/) Slide Up  (\) Slide Down  (h) Hammer On  (p) Pull Off  (b) Bend (r) Release (v) Vibrato


E|----------------------------------
B|----------------------------------
G|--------------7-------------------
D|-----8p0--10-----8------8------8--
A|--------------------10-----10-----
E|--8-------------------------------



E|-----------------
B|-----------------
G|--------1--3-----
D|--------------1--
A|-----------------
E|--3--1-----------
http://www.guitartabcreator.com
Guitar Tab Creator is intended to store guitar tab created through the tool. It currently does not support in-line text editing. Any text you place in here will be lost. If you need to comment on your tab, please use the "Tab Notes" section located below.