Versus the Night - Wood and Gold

(/) Slide Up  (\) Slide Down  (h) Hammer On  (p) Pull Off  (b) Bend (r) Release (v) Vibrato

Stave 1:

E|----------------------------------------------------------------
B|----------------------------------------------------------------
G|----------------------------------------------------------------
D|-0-x----------0-x----------0-x----------0-x-7\8-7---------------
A|-0-x-8-7------0-x-8-7-10-8-0-x-8-7------0-x-------10-8-8h10p8-7-
E|-0-0-----10-8-0-0----------0-x-----10-8-0-x---------------------

Stave 2:

E|-------------------------------------------------------------------
B|-6-5---8-6p5-6-5---8-6p5-8-8-8-8-8-8-8-6-6-6-6-6-6-5-5-5-5-5-6-6-6-
G|-----5-----------5-------------------------------------------------
D|-------------------------------------------------------------------
A|-------------------------------------------------------------------
E|-------------------------------------------------------------------

Stave 3:

E|-8-6-5-5h6p5---------8-------6-------5-------8-------
B|-------------6-5-5h6---6-5h6---6-5h6---6-5h6---6-5h6-
G|-----------------------------------------------------
D|-----------------------------------------------------
A|-----------------------------------------------------
E|-----------------------------------------------------

Stave 4:

E|-8-6-5-5h6p5-------------------8-------5-------8-----------------
B|-------------6-5-5h6-6h8-6-5h6---6-5h6---6-5h6---6-5h6-7\8-6-5-8-
G|-----------------------------------------------------------------
D|-----------------------------------------------------------------
A|-----------------------------------------------------------------
E|-----------------------------------------------------------------

Stave 5:

E|-------------------------------------------------------------------------
B|-------------------------------------------------------------------------
G|-------------------------------------------------------------------------
D|-x--------------x--------------x--------------x------7\8-7---------------
A|-x-8-7-10-8-7-8-x-8-7-10-8-7-8-x-8-7-8-10-8-7-x--8-7-------10-8-7h8p7----
E|-0--------------0--------------8--------------10----------------------10-

Stave 6:

E|--------------------
B|--------------------
G|---10---10---9------
D|-x-10-x-10-x-10-x-8-
A|-x-8--x-8--x-8--x-8-
E|-x----x----x----x-8-

Stave 7:

E|-------------------------------------------------------------------------
B|-------------------------------------------------------------------------
G|-------------------------------------------------------------------------
D|-x-------------------------------------x---------------------------------
A|-x-5h7-7h8-------7h8p7----5h7-10-8-7-8-x-5h7-7h8-------7h8p7----5h7-10-8-
E|-x---------10-12-------10--------------x---------10-12-------10----------

Stave 8:

E|------------------------------------
B|------------------------------------
G|---5-7-8-7-10-8-5-7-5-7-------------
D|-x-5-7-8-7-10-8-5-7-5-7-3-5-1-3-3-5-
A|-x-3-5-6-5-8--6-3-5-3-5-3-5-1-3-3-5-
E|-x----------------------3-5-1-3-3-5-

Stave 9:

E|-------------
B|-------------
G|-------------
D|-x-7-x-------
A|-x---x-5-6-7-
E|-x---x-------

http://www.guitartabcreator.com
Guitar Tab Creator is intended to store guitar tab created through the tool. It currently does not support in-line text editing. Any text you place in here will be lost. If you need to comment on your tab, please use the "Tab Notes" section located below.