Left Hand Exercises

(/) Slide Up  (\) Slide Down  (h) Hammer On  (p) Pull Off  (b) Bend (r) Release (v) Vibrato


E|-----------8---------------------7---------------------6---------------------5-----------
B|---------8---8-----------------7---7-----------------6---6-----------------5---5---------
G|-------8-------8-------------7-------7-------------6-------6-------------5-------5-------
D|-----8-----------8---------7-----------7---------6-----------6---------5-----------5-----
A|---8---------------8-----7---------------7-----6---------------6-----5---------------5---
E|-8-------------------8-7-------------------7-6-------------------6-5-------------------5-



E|---------------------7h8-----------------------------------------6h7-
B|-----------------7h8-----7h8---------------------------------6h7-----
G|-------------7h8-------------7h8-------------------------6h7---------
D|---------7h8---------------------7h8-----------------6h7-------------
A|-----7h8-----------------------------7h8---------6h7-----------------
E|-7h8-------------------------------------7h8-6h7---------------------



E|-----------------------------------------5h6---------------------
B|-6h7---------------------------------5h6-----5h6-----------------
G|-----6h7-------------------------5h6-------------5h6-------------
D|---------6h7-----------------5h6---------------------5h6---------
A|-------------6h7---------5h6-----------------------------5h6-----
E|-----------------6h7-5h6-------------------------------------5h6-



E|---------------------6h8-----------------------------------------5h8-
B|-----------------6h8-----6h8---------------------------------5h8-----
G|-------------6h8-------------6h8-------------------------5h8---------
D|---------6h8---------------------6h8-----------------5h8-------------
A|-----6h8-----------------------------6h8---------5h8-----------------
E|-6h8-------------------------------------6h8-5h8---------------------



E|-----------------------------------------5h7---------------------
B|-5h8---------------------------------5h7-----5h7-----------------
G|-----5h8-------------------------5h7-------------5h7-------------
D|---------5h8-----------------5h7---------------------5h7---------
A|-------------5h8---------5h7-----------------------------5h7-----
E|-----------------5h8-5h7-------------------------------------5h7-
http://www.guitartabcreator.com
Guitar Tab Creator is intended to store guitar tab created through the tool. It currently does not support in-line text editing. Any text you place in here will be lost. If you need to comment on your tab, please use the "Tab Notes" section located below.