Want No Man

(/) Slide Up  (\) Slide Down  (h) Hammer On  (p) Pull Off  (b) Bend (r) Release (v) Vibrato
E|--------------------------------------------------------------------------------------
B|--------------------------------------------------------------------------------------
G|--------------------------------------------------------------------------------------
D|-----10-------------------10-------------------10-------------------10----------------
A|---------7--10--7--10---------7--10--7--10---------7--10--7--10---------7--10--7--10--
E|--8--------------------8--------------------8--------------------8--------------------

E|------------------------------------------------------------------
B|------------------------------------------------------------------
G|-----10-------------------10--------------------12----------------
D|---------7--10--7--10---------7--10--7--10----------9--12--9--12--
A|--8--------------------8--------------------10--------------------
E|------------------------------------------------------------------


E|---------------------------------------------------------------------------------------
B|---------------------------------------------------------------------------------------
G|------12-------------------10-------------------10-------------------------------------
D|----------9--12--9--12---------7--10--7--10---------7--10--7--10-----10----------------
A|--10--------------------8--------------------8---------------------------7--10--7--10--
E|------------------------------------------------------------------8--------------------



http://www.guitartabcreator.com
Guitar Tab Creator is intended to store guitar tab created through the tool. It currently does not support in-line text editing. Any text you place in here will be lost. If you need to comment on your tab, please use the "Tab Notes" section located below.