Turn Me ON

(/) Slide Up  (\) Slide Down  (h) Hammer On  (p) Pull Off  (b) Bend (r) Release (v) Vibrato

Intro
E|-----------------------------
B|-----------------------------
G|-----------------------------
D|-----------0--0--------------
A|--0--2--4--------4--2--0-----
E|--------------------------0--


E|------------------------------------------------------------------------------------
B|------------------------------------------------------------------------------------
G|------------------------------------------------------------------------------------
D|-----------------------------------------------------------0----0-------------------
A|----0----0----5----5----0---------2---------0----2----5--------------4----2----0----
E|-----------------------------2---------0--------------------------------------------

Turn
E|--------------------------
B|--------------------------
G|--------------------------
D|--------------------------
A|--0-----------0--1--2-----
E|-----0--1--2-----------0--

Bridge
E|--------------------------
B|--------------------------
G|--------------------------
D|--------------------------
A|--0--4--5--0--4--5-----7--
E|--------------------0-----
http://www.guitartabcreator.com
Guitar Tab Creator is intended to store guitar tab created through the tool. It currently does not support in-line text editing. Any text you place in here will be lost. If you need to comment on your tab, please use the "Tab Notes" section located below.