Some Kinda Wonderful

(/) Slide Up  (\) Slide Down  (h) Hammer On  (p) Pull Off  (b) Bend (r) Release (v) Vibrato

E|---------------------------------------
B|---------------------------------------
G|---------------------------------------
D|---------------------------------------
A|--1--3--1-------------1--3--1----------
E|-----------3--1----3-----------3--0----

E|--------------------------------|-------------------------------------
B|--------------------------------|-------------------------------------
G|--------------------------------|-------------------------------------
D|--------------------------------|-------------------------------------
A|--------3--1--3--------3--1--3--|--1--3--1-------------1--3--1--------
E|--1--1-----------1--1-----------|-----------3--1----3-----------3--0--

BRIDGE
E|-----------------------------------------------------------------------------------
B|-----------------------------------------------------------------------------------
G|-----------------------------------------------------------------------------------
D|-----------------------------------------------------------------------------------
A|--------------------------------------------------1--3--1-----------1--3--1--------
E|--3--3--3--3--3--3--3--2--1--1--1--1--1--1--1--1-----------3--1--3-----------3--0--

CHORUS - Can I get a witness
E|-----------------------------
B|-----------------------------
G|-----------------------------
D|-----------------------------
A|--3--3--------3--3--------3--
E|--------5--5--------5--5-----
http://www.guitartabcreator.com
Guitar Tab Creator is intended to store guitar tab created through the tool. It currently does not support in-line text editing. Any text you place in here will be lost. If you need to comment on your tab, please use the "Tab Notes" section located below.