Oreo Cookie (E)

(/) Slide Up  (\) Slide Down  (h) Hammer On  (p) Pull Off  (b) Bend (r) Release (v) Vibrato


E|-------------------------------------------------------------------------------------------------
B|-------------------------------------------------------------------------------------------------
G|-------------------------------------------------------------------------------------------------
D|-------------------------------------------------------------------------------------------------
A|-------------7-5-------------7-5-------------7-5-------------7-5-------------5-3-------------5-3-
E|-7-7-7-7-7-7-----7-7-7-7-7-7-----7-7-7-7-7-7-----7-7-7-7-7-7-----5-5-5-5-5-5-----5-5-5-5-5-5-----



E|-----------------------------------------------------------------------------------
B|-----------------------------------------------------------------------------------
G|-----------------------------------------------------------------------------------
D|-------------7-5---------------------------------------------------------------7-5-
A|-7-7-7-7-7-7----------------------------------0-0-1-1-2--2-2-2-----7-7-7-7-7-7-----
E|-----------------5-6-7--7--6-7-8--7-3-0-0-4-4------------------3-0-----------------
http://www.guitartabcreator.com
Guitar Tab Creator is intended to store guitar tab created through the tool. It currently does not support in-line text editing. Any text you place in here will be lost. If you need to comment on your tab, please use the "Tab Notes" section located below.