Next To You

(/) Slide Up  (\) Slide Down  (h) Hammer On  (p) Pull Off  (b) Bend (r) Release (v) Vibrato

VERSE
E|--------------------------------------------------------------------------------------------------
B|--------------------------------------------------------------------------------------------------
G|--------------------------------------------------------------------------------------------------
D|-----------------------------------------------------------------5--------3--4--5--------3--4--5--
A|--5--------3--4--5--------3--4--5--------3--4--5--------3--4--5-----5--5-----------5--5-----------
E|-----5--5-----------5--5-----------5--5-----------5--5--------------------------------------------

E|--------------------------------------------------------------------
B|--------------------------------------------------------------------
G|--------------------------------------------------------------------
D|--------------------7--------5--6--5-----3--4--5--------------------
A|--5--------3--4--5-----7--7-----------5-----------5--------3--4--5--
E|-----5--5--------------------------------------------5--5-----------

TURN
E|--------------------------------------------------
B|--------------------------------------------------
G|--------------------------------------------------
D|--7--------3--4--5--------------------------------
A|-----7--7-----------5--5--3--4--5--------3--4--5--
E|-----------------------------------5--5-----------

BRIDGE
E|----------------------------------------------------------------
B|----------------------------------------------------------------
G|----------------------------------------------------------------
D|----------------------------------------------------------------
A|---------0----1----2----7---------5--------------3----4----5----
E|----2------------------------5---------5----5-------------------
http://www.guitartabcreator.com
Guitar Tab Creator is intended to store guitar tab created through the tool. It currently does not support in-line text editing. Any text you place in here will be lost. If you need to comment on your tab, please use the "Tab Notes" section located below.