Moondance

(/) Slide Up  (\) Slide Down  (h) Hammer On  (p) Pull Off  (b) Bend (r) Release (v) Vibrato
E|-------------------------------------------------------------------------------------------------------
B|-------------------------------------------------------------------------------------------------------
G|-------------------------------------------------------------------------------------------------------
D|-------------------------------------------------------------------------------------------------------
A|-----------------------5-7-5---------------------------5-7-5-------7-5-3-5---5---------5-7-5-3-5-5-5-5-
E|-5-6-7-0-5-6-7-0-5-6-7-------7-6-5-6-7-0-5-6-7-0-5-6-7-------7-6-5---------5---5-5-3-5-----------------

Bridge
E|----------------------------------------------------------------------------------------------
B|----------------------------------------------------------------------------------------------
G|---------5-7---------5-7---------5-7-------10-9-8---------5-7---------5-7---------5-7---------
D|---5-7-7-------5-7-7-------5-7-7-------5-7----------5-7-7-------5-7-7-------5-7-7-------5-7---
A|-7-----------7-----------7-----------7------------7-----------7-----------7-----------7-----7-
E|----------------------------------------------------------------------------------------------

Outro
E|-----------------------
B|-----------------------
G|-----------------------
D|-----------------------
A|--------------7--5-----
E|--5--3--1--0--------5--
http://www.guitartabcreator.com
Guitar Tab Creator is intended to store guitar tab created through the tool. It currently does not support in-line text editing. Any text you place in here will be lost. If you need to comment on your tab, please use the "Tab Notes" section located below.