Mercy (G)

(/) Slide Up  (\) Slide Down  (h) Hammer On  (p) Pull Off  (b) Bend (r) Release (v) Vibrato


E|--------------------------------------------------------------------------------------------------
B|--------------------------------------------------------------------------------------------------
G|--------------------------------------------------------------------------------------------------
D|--7--7-----5--7--7-----5--7--7-----5--7--7-----5--7--7-----5--7--7-----5--7--7-----5--7--7-----5--
A|--------7-----------7-----------7-----------7-----------7-----------7-----------7-----------7-----
E|--------------------------------------------------------------------------------------------------


E|-----------------------------------------------------------------------------------------
B|-----------------------------------------------------------------------------------------
G|-----------------------------------------------------------------------------------------
D|--7--7--7--5-----------------------5--7--7-----5--7--7--7--5-----------------------5--7--
A|--------------7--7--7--6--5--5--7-----------7-----------------7--7--7--6--5--5--7--------
E|-----------------------------------------------------------------------------------------


E|--------------------------------------------------------------------------------------------
B|--------------------------------------------------------------------------------------------
G|--------------------------------------------------------------------------------------------
D|--------------------------------------------------------------------------------------------
A|--------------------------------------------------------------------------------------------
E|--0--1--2--3--3--3--1--3--1--3--1--3--3--1--3--1--3--1--3--3--1--3--1--3--1--3--3--1--3-----


E|----------------------------------------------------------------------------------------------------------------------------
B|----------------------------------------------------------------------------------------------------------------------------
G|----------------------------------------------------------------------------------------------------------------------------
D|----------------------------------------------------------------------------------------------------------------------------
A|--0--1--2--3--3--1--3--1--3--1--3--3--1--3--1--3--1-----------------------------------1--3/5--4--3--------------------------
E|-----------------------------------------------------3--3--1--3--1--3--1--3--3--1--3----------------3--3--1--3--0--1--2--3--
http://www.guitartabcreator.com
Guitar Tab Creator is intended to store guitar tab created through the tool. It currently does not support in-line text editing. Any text you place in here will be lost. If you need to comment on your tab, please use the "Tab Notes" section located below.