I Get Evil

(/) Slide Up  (\) Slide Down  (h) Hammer On  (p) Pull Off  (b) Bend (r) Release (v) Vibrato


E|--------------------------------------------------------------------------------
B|--------------------------------------------------------------------------------
G|------------------------------------------------7---------7---------------------
D|---------7---------7---------7--------7----7-10------7-10-----------7---------7-
A|----7-10------7-10------7-10-----7-10---8---------8------------7-10------7-10---
E|-8---------8---------8---------8----------------------------8---------8---------



E|----------------------------------------------
B|----------------------------------------------
G|----------9---------7-------------------------
D|-----9-12------7-10----------7----------------
A|-10---------8------------7-9---10-10-10-10-10-
E|----------------------8-----------------------
http://www.guitartabcreator.com
Guitar Tab Creator is intended to store guitar tab created through the tool. It currently does not support in-line text editing. Any text you place in here will be lost. If you need to comment on your tab, please use the "Tab Notes" section located below.