Great Balls of Fire

(/) Slide Up  (\) Slide Down  (h) Hammer On  (p) Pull Off  (b) Bend (r) Release (v) Vibrato

Intro
E|-----------------------------------------
B|-----------------------------------------
G|-----------------------------------------
D|-----------------------------------------
A|---------4-5-6-7-6-7-8-9-9-9-8-7---------
E|-5-6-7-8-------------------------5-6-7-8-

Verse
E|----------------------------------------------------------
B|----------------------------------------------------------
G|-------------------7-8---------9-10--------7-8------------
D|--------7-8---7-10--------9-12--------7-10------------7-8-
A|---7-10-----8----------10-----------8------------7-10-----
E|-8---------------------------------------------8----------

Bridge - "Kiss Me Baby"
E|------------------------------------------------
B|------------------------------------------------
G|------------------------------------------------
D|---7-9-7-9-------------7-9-7--------------------
A|-8-----------7-9-7-9-8-------10-10-10-10-10-----
E|-----------8------------------------------------
http://www.guitartabcreator.com
Guitar Tab Creator is intended to store guitar tab created through the tool. It currently does not support in-line text editing. Any text you place in here will be lost. If you need to comment on your tab, please use the "Tab Notes" section located below.