Fine & Mellow

(/) Slide Up  (\) Slide Down  (h) Hammer On  (p) Pull Off  (b) Bend (r) Release (v) Vibrato
E|---------------------------------------------------------------------------------------------------
B|---------------------------------------------------------------------------------------------------
G|---------------------4-4-7-7-4-4-------------------------------------------------------------------
D|-----4-4-7-7-4-4-5-5-----------------4-4-7-7-4-4-----4-4-7-7-4-4-----------------------------------
A|-5-5-----------------------------5-5-------------5-5-----------------4-4-6-6-4-4-----2-2-4-4-2-2---
E|-----------------------------------------------------------------5-5-------------3-3---------------



E|-----------------------------------------
B|-----------------------------------------
G|-----------------------------------------
D|--------4--4--5--5--6--6--7--7--5--6--7--
A|--5--5-----------------------------------
E|-----------------------------------------



E|-------------------------------------------------------------------------------------------------
B|-------------------------------------------------------------------------------------------------
G|---------------------------------------------------------------------4-4-7-7-4-4-----4-4-7-7-4-4-
D|-----4-4-7-7-4-4-----4-4-7-7-4-4-----4-4-7-7-4-4-----4-4-7-7-4-4-5-5-------------5-5-------------
A|-5-5-------------5-5-------------5-5-------------5-5---------------------------------------------
E|-------------------------------------------------------------------------------------------------



E|---------------------------------------------------------------------------
B|---------------------------------------------------------------------------
G|---------------------------------------------------------------------------
D|-----4-4-7-7-4-4-------------------------------------4-4-5-5-6-6-7-7-5-6-7-
A|-5-5-----------------4-4-7-7-4-4-----2-2-4-4-2-2-5-5-----------------------
E|-----------------5-5-------------3-3---------------------------------------



E|-----------------------------------
B|-----------------------------------
G|-----------------------------------
D|--------4--4--5--5--6--6--7--6-----
A|--5--5--------------------------5--
E|-----------------------------------
http://www.guitartabcreator.com
Guitar Tab Creator is intended to store guitar tab created through the tool. It currently does not support in-line text editing. Any text you place in here will be lost. If you need to comment on your tab, please use the "Tab Notes" section located below.