Born on the Bayou (E)

(/) Slide Up  (\) Slide Down  (h) Hammer On  (p) Pull Off  (b) Bend (r) Release (v) Vibrato

VERSE
E|-------------------------------------------------------------------------
B|-------------------------------------------------------------------------
G|-------------------------------------------------------------------------
D|-------------------------------------------------------6-----6--7--8--9--
A|--7----------------7--------------7--------------7--7-----7--------------
E|-------7--9--7--9-----7--9--7--9-----7--9--7--9--------------------------

CHORUS
E|--------------------------------------------------
B|--------------------------------------------------
G|--------------------------------------------------
D|--------------------------------------------------
A|--7--------------7--5-----7--------------7--5-----
E|-----7--9--7--9--------5-----7--9--7--9--------5--
http://www.guitartabcreator.com
Guitar Tab Creator is intended to store guitar tab created through the tool. It currently does not support in-line text editing. Any text you place in here will be lost. If you need to comment on your tab, please use the "Tab Notes" section located below.