Ain't No Use

(/) Slide Up  (\) Slide Down  (h) Hammer On  (p) Pull Off  (b) Bend (r) Release (v) Vibrato

VERSE
E|-------------------------------------------------
B|-------------------------------------------------
G|-------------------------------------------------
D|-------------------------------------------------
A|----5---------5---------5----1--------------5----
E|---------3---------3--------------0----5---------

TURN
E|------------------------
B|------------------------
G|------------------------
D|------------------------
A|------------------------
E|----2----3----4----5----

INTRO TO BRIDGE
E|-----------------------------
B|-----------------------------
G|-----------------------------
D|-----------------------------
A|----5---------5----5---------
E|---------3--------------5----

BRIDGE
E|--------------------------------------------
B|--------------------------------------------
G|--------------------------------------------
D|--------------------------------------------
A|---------2---------5--------------7---------
E|----2---------0---------2----7---------5----
http://www.guitartabcreator.com
Guitar Tab Creator is intended to store guitar tab created through the tool. It currently does not support in-line text editing. Any text you place in here will be lost. If you need to comment on your tab, please use the "Tab Notes" section located below.