DGCGCD

(/) Slide Up  (\) Slide Down  (h) Hammer On  (p) Pull Off  (b) Bend (r) Release (v) Vibrato
E|---------------------------------------------------------------|--
B|--4/6--5-----4/6--5-----6-----2--------------------------------|--
G|----------6----------6--6--2--2--------------------------------|--
D|---------------------5-----1--------1-----1-----1-----1-----1--|--
A|---------------------------------0-----0-----0-----0-----0-----|--
E|---------------------------------------------------------------|--



E|---------------------------------------------------------0--0--0--|--
B|-----4/6--5-----4/6--5--------6-----2--------------------0--0--0--|--
G|-------------6----------6--6--6--2--2--------------------2--2--1--|--
D|---------------------------5-----1--------1-----1-----1--0--0--0--|--
A|--0------------------------------------0-----0-----0-----2--2--1--|--
E|---------------------------------------------------------0--0--0--|--



E|-----------------------|--
B|-----------------------|--
G|-----------6--------3--|--
D|--5--6--5-----4--3-----|--
A|-----------------------|--
E|-----------------------|--
http://www.guitartabcreator.com
Guitar Tab Creator is intended to store guitar tab created through the tool. It currently does not support in-line text editing. Any text you place in here will be lost. If you need to comment on your tab, please use the "Tab Notes" section located below.