take my word

(/) Slide Up  (\) Slide Down  (h) Hammer On  (p) Pull Off  (b) Bend (r) Release (v) Vibrato


E|--------------------------------------------------------------------------------
B|--------------------------------------------------------------------------------
G|--------------------------------------------------------------------------------
D|--------------------------------------------------------------------------------
A|-----------------------------------------------------------------7h8p7p5-----5--
E|--0--0--0--0--0--0--0--0--0--0--0--0--0--0--0--0--0--0--0--0--0-----------8-----



E|--------------------------------------------------------------------------------------------
B|--------------------------------------------------------------------------------------------
G|--------------------------------------------------------------------------------------------
D|--------------------------------------------------------------------------------------------
A|--------10-----10--10-----8-----8-----8-----8--8--------7-----8--8-----7-----7-----8-----8--
E|--0--8------8----------8-----8-----8-----8--------0--8-----8--------5-----5-----5-----5-----



E|--------------------------------------------------------------------------------------------------
B|--------------------------------------------------------------------------------------------------
G|--------------------------------------------------------------------------------------------------
D|--------------------------------------------------------------------------------------------------
A|--5--5--5--5-----------------------------------------------4--4--4--4--5--5--5--5-----------------
E|--------------0--0--0--0--0--7--8--8--8--8--8--3--3--3--3--------------------------0--0--0--0--0--



E|----------------------------------
B|----------------------------------
G|----------------------------------
D|----------------------------------
A|--------------------------------4b
E|--7--8--8--8--8--8--3--3--3--3----
http://www.guitartabcreator.com
Guitar Tab Creator is intended to store guitar tab created through the tool. It currently does not support in-line text editing. Any text you place in here will be lost. If you need to comment on your tab, please use the "Tab Notes" section located below.