have faith in me

(/) Slide Up  (\) Slide Down  (h) Hammer On  (p) Pull Off  (b) Bend (r) Release (v) Vibrato

E|-----------------------------------------------------------
B|-----------------------------------------------------------
G|-----------------------------------------------------------
D|-----------------------------------------------------------
A|-----------------------------------------------0-----0-----
E|--0--0--0--0--0--0--0--0--0--0--0--0--0--0--3-----2-----0--



E|--------------------------------------------------------------
B|--------------------------------------------------------------
G|--------------------------------------------------------------
D|--------------------------------------------------------------
A|--------------------------------------------------------------
E|--0--0--0--0--0--0--0--0--0--0--0--0--0--0--0--0--0--0--0--0--



E|-------------------------------------------------------------------------------------------------
B|-------------------------------------------------------------------------------------------------
G|-------------------------------------------------------------------------------------------------
D|-------------------------------------------------------------------------------------------------
A|-----------5--------7--------8-----------8--------10--------12-----------10--------12--------13--
E|--0--0--0-----0--0-----0--0-----7--7--7-----7--7------7--7------8--8--8------8--8------8--8------



E|--------------------------------------------------
B|--------------------------------------------------
G|--------------------------------------------------
D|--8--7--5-----7--5--------5-----------------------
A|-----------8--------8--7-----8--7--5--8--7--5--3--
E|--------------------------------------------------



E|---------------------------------------------------------------------------------------------
B|---------------------------------------------------------------------------------------------
G|---------------------------------------------------------------------------------------------
D|---------------------------------------------------------------------------------------------
A|-----------8--------10--------12--------------12----------13----------15--------------13-----
E|--0--0--0-----0--0------0--0------10--10--10------10--10------10--10------12--12--12---------



E|--------------------------------------------------------------------------
B|--------------------------------------------------------------------------
G|--------------------------------------------------------------------------
D|--------------------------8--7--5-----7--5--------5-----------------------
A|----------15----------17-----------8--------8--7-----8--7--5--8--7--5--3--
E|--12--12------12--12------------------------------------------------------



E|-----------------------------------------------------------------------------------------
B|-----------------------------------------------------------------------------------------
G|-----------------------------------------------------------------------------------------
D|-----------------------------------------------------3-----------5-----------7-----------
A|--5--------5-----------7-----------8-----------3--3-----3--3--3-----3--3--3-----3--3--3--
E|-----0--0-----0--0--0-----0--0--0-----0--0--0--------------------------------------------



E|-----------------------------------------------
B|-----------------------------------------------
G|-----------------------------------------------
D|-----------------------2-----------3-----------
A|--1--1--1--5--1--1--1-----1--1--1-----1--1--1--
E|-----------------------------------------------



E|-----------------------------------------------
B|-----------------------------------------------
G|-----------------------------------------------
D|-----------------------7--7--7--7--3--3--3--3--
A|--3--3--3--7--3--3--3--------------------------
E|-----------------------------------------------



E|--------------------------------------------
B|--------------------------------------------
G|--------------------------------------------
D|-----------3--------------------------------
A|--3--3--3-----3--3--3--7p3--3--7p3--3--7p3--
E|--------------------------------------------



E|--------------------------------------------------------------------------------------------------
B|--------------------------------------------------------------------------------------------------
G|--------------------------------------------------------------------------------------------------
D|----------------------------------------------------------7-----------8-----------10--------------
A|--8--------8-----------10-----------12-----------7--7--7-----7--7--7-----7--7--7------7--7--7-----
E|-----0--0-----0--0--0------0--0--0------0--0--0---------------------------------------------------



E|-------------------------------------------------------------------------------------------------
B|-------------------------------------------------------------------------------------------------
G|-------------------------------------------------------------------------------------------------
D|-----------------------5-----------7---------------------------------10--10--10--10--7--7--7--7--
A|--5--5--5--8--5--5--5-----5--5--5-----5--5--5--7--7--7--10--7--7--7------------------------------
E|-------------------------------------------------------------------------------------------------



E|-----------------------------------------------
B|-----------------------------------------------
G|-----------------------------------------------
D|-----------7-----------------------------------
A|--7--7--7-----7--7--7--10p7--7--10p7--7--10p7--
E|-----------------------------------------------



E|-----------------------------------------------------------------------
B|-----------------------------------------------------------------------
G|-----------------------------------------------------------------------
D|-----------------------------------------------3--------5--------7-----
A|--5--------5--------7--------8--------3--------------------------------
E|-----0--0-----0--0-----0--0-----0--0-----0--0-----0--0-----0--0--------



E|--------------------------------------------------------------------------------
B|--------------------------------------------------------------------------------
G|--------------------------------------------------------------------------------
D|--------------------------2--------3--------------------------7--------3--------
A|--------1--------5--------------------------3--------7--------------------------
E|--0--0-----0--0-----0--0-----0--0-----0--0-----0--0-----0--0-----0--0-----0--0--



E|-----------------------------------------------------------------------------
B|-----------------------------------------------------------------------------
G|-----------------------------------------------------------------------------
D|-------------------------------------------------7--------8--------10--------
A|--8--------8--------10--------12--------7------------------------------------
E|-----0--0-----0--0------0--0------0--0-----0--0-----0--0-----0--0------0--0--



E|----------------------------------------------------------------------------
B|----------------------------------------------------------------------------
G|----------------------------------------------------------------------------
D|--------------------5--------7---------------------------10--------7--------
A|--5--------8--------------------------7--------10---------------------------
E|-----0--0-----0--0-----0--0-----0--0-----0--0------0--0------0--0-----0--0--
http://www.guitartabcreator.com
Guitar Tab Creator is intended to store guitar tab created through the tool. It currently does not support in-line text editing. Any text you place in here will be lost. If you need to comment on your tab, please use the "Tab Notes" section located below.