faith in me

(/) Slide Up  (\) Slide Down  (h) Hammer On  (p) Pull Off  (b) Bend (r) Release (v) Vibrato

E|------------------------------------------------------------------------------------
B|------------------------------------------------------------------------------------
G|------------------------------------------------------------------------------------
D|------------------------------------------------------------------------------------
A|--5-----------5-----------8-----7-----5h7--3-----------3-----------8-----7-----3h5--
E|-----0--0--0-----0--0--0-----0-----0----------3--3--3-----3--3--3-----3-----3-------



E|-------------------------------------------------------------------------------------
B|-------------------------------------------------------------------------------------
G|-------------------------------------------------------------------------------------
D|--------------------------3-----2----------------------------------------------------
A|--1-----------1-----------------------3h5--3-----------3-----------3-----5-----7-----
E|-----0--0--0-----0--0--0-----0-----0----------3--3--3-----3--3--3-----3-----3--------
http://www.guitartabcreator.com
Guitar Tab Creator is intended to store guitar tab created through the tool. It currently does not support in-line text editing. Any text you place in here will be lost. If you need to comment on your tab, please use the "Tab Notes" section located below.