Dust on the Ground (Acoustic)

(/) Slide Up  (\) Slide Down  (h) Hammer On  (p) Pull Off  (b) Bend (r) Release (v) Vibrato

E|-------0-----0-----3-----3-------3-----3-----3-----3-------0-----0-----0-----0-------0-----0--
B|-------1-----1-----3-----3-------3-----3-----3-----3-------0-----0-----0-----0-------0-----0--
G|-------0-----0-----0-----0-------0-----0-----0-----0--0h2--0--0--0-----0-----0-------0-----0--
D|--0h2-----0-----------0-------------0-----------0-------------------------2-------------2-----
A|----------------------------0h2-------------------------------------------------0h2-----------
E|----------------3-------------------------3-------------------------0-------------------------



E|-----0-------0-----0-----0-------3-----3-----3-----3-----3-----3-------0-----0-----0-----0-----
B|-----0-------0-----0-----0-------3-----3-----3-----3-----3-----3-------0-----0-----0-----0-----
G|-----0-------0-----0-----0-------0-----0-----0-----0-----0-----0--0h2--0--0--0-----0-----0-----
D|--------2/4-----2-----0-------------0-----------0-----------0-------------------------2--------
A|----------------------------0h2----------------------------------------------------------------
E|--0---------------------------------------3-----------3-------------------------0--------------



E|-------0-----0-----0-----0-------0-----0-----3-----3-------3-----3-----3--
B|-------0-----0-----0-----0-------1-----1-----3-----3-------3-----3-----3--
G|-------0-----0-----0-----0-------0-----0-----0-----0-------0-----0-----0--
D|----------2-----------2-----0h2-----0-----------0-------------0-----------
A|--0h2-------------------------------------------------0h2-----------------
E|----------------0-------------------------3-------------------------3-----
http://www.guitartabcreator.com
Guitar Tab Creator is intended to store guitar tab created through the tool. It currently does not support in-line text editing. Any text you place in here will be lost. If you need to comment on your tab, please use the "Tab Notes" section located below.