New Song

(/) Slide Up  (\) Slide Down  (h) Hammer On  (p) Pull Off  (b) Bend (r) Release (v) Vibrato
E|-----0-----0-----0-----0-----0-----0-----0-----0-----0-----0-----0-----0-----0-----0-----0-----0--------
B|--------0-----------0-----------1-----------1-----------3-----------3-----------2-----------2-----------
G|--2-----------2-----------2-----------2-----------2-----------2-----------2-----------2-----------------
D|--------------------------------------------------------------------------------------------------------
A|--------------------------------------------------------------------------------------------------------
E|--------------------------------------------------------------------------------------------------------



E|-------------------------------------
B|-------------------------------------
G|--2p0-----0h2p0------------------2v--
D|-------2---------1p0-----0-----------
A|----------------------3-----3p0------
E|-------------------------------------



E|--2--2--2--2--------3----------------------2--2--2--2--------3-------------------------2--2--2--2--
B|--3--3--3--3--------3----------------------3--3--3--3--------3-------------------------3--3--3--3--
G|--2--2--2--2-------------------------------2--2--2--2----------------------------------2--2--2--2--
D|----------------------------------------------------------------0h2h3p2p0-----0--------------------
A|--------------------2--0h2h3p2p0-----0-----------------------2-------------3-----2--0--------------
E|--------------3--3--3-------------3-----3--------------3--3--3-------------------------------------



E|-----------------------------------------------------------------------------------------
B|-----------------------------------------------------------------------------------------
G|--2--2--2--2--5--5--5--5--4--4--4--4--2--2--2----2--2--2--2--12--12--12--12--9--9--9--9--
D|--0--0--0--0--0--0--0--0--0--0--0--0--0--0--0----0--0--0--0--0---0---0---0---0--0--0--0--
A|-----------------------------------------------------------------------------------------
E|-----------------------------------------------------------------------------------------



E|------------------
B|------------------
G|--10--10--10--10--
D|--0---0---0---0---
A|------------------
E|------------------



E|--3--3--3--3--7--7--7--7--5--5--5--5--5--5--5--5--3--3--3--3--7--7--7--7--5--5--5--5--5--5--5--5--
B|--5--5--5--5--5--5--5--5--7--7--7--7--7--7--7--7--5--5--5--5--5--5--5--5--7--7--7--7--7--7--7--7--
G|--5--5--5--5--5--5--5--5--7--7--7--7--7--7--7--7--5--5--5--5--5--5--5--5--7--7--7--7--7--7--7--7--
D|--------------------------------------------------------------------------------------------------
A|--------------------------------------------------------------------------------------------------
E|--------------------------------------------------------------------------------------------------
http://www.guitartabcreator.com
Guitar Tab Creator is intended to store guitar tab created through the tool. It currently does not support in-line text editing. Any text you place in here will be lost. If you need to comment on your tab, please use the "Tab Notes" section located below.