Melody with D - G - A chord progression

(/) Slide Up  (\) Slide Down  (h) Hammer On  (p) Pull Off  (b) Bend (r) Release (v) Vibrato


E|---------------------------------------
B|--------5--7--7--5--7b8b7--5--------5--
G|-----7------------------------7--6-----
D|--7------------------------------------
A|---------------------------------------
E|---------------------------------------



E|-------------------------------------------
B|--------------------5----------------------
G|--------7--6--6--7-----7--6--7-------------
D|-----7--------------------------7--5-------
A|--7-----------------------------------7/9--
E|-------------------------------------------



E|-----------3--3--5/7--5--3--2/5--
B|--3--2--1------------------------
G|---------------------------------
D|---------------------------------
A|---------------------------------
E|---------------------------------



E|--------------0--------2--
B|--------5--8--8--5--6--3--
G|-----6--------5--4-----2--
D|--7-----------6--5--------
A|--------------7-----------
E|--------------------------
http://www.guitartabcreator.com
Guitar Tab Creator is intended to store guitar tab created through the tool. It currently does not support in-line text editing. Any text you place in here will be lost. If you need to comment on your tab, please use the "Tab Notes" section located below.