F#m chord & Arpegiatted for THE WEEDS IN YOUR GARDEN ©2013 William Smith Keane All Rights Reserved

(/) Slide Up  (\) Slide Down  (h) Hammer On  (p) Pull Off  (b) Bend (r) Release (v) Vibrato


E|--2--4--2--
B|--2--2--2--
G|--2--2--2--
D|--4--4--4--
A|-----------
E|-----------



E|-----------2--------4--------2-----------
B|-----2--------2--------2-----------2-----
G|--------2--------2--------2-----------2--
D|--4-----------------------------4--------
A|-----------------------------------------
E|-----------------------------------------
http://www.guitartabcreator.com
Guitar Tab Creator is intended to store guitar tab created through the tool. It currently does not support in-line text editing. Any text you place in here will be lost. If you need to comment on your tab, please use the "Tab Notes" section located below.