Pentatonic Scale in A major and G major

(/) Slide Up  (\) Slide Down  (h) Hammer On  (p) Pull Off  (b) Bend (r) Release (v) Vibrato
E|--------------------------------5--7--7--5-----------------------------------
B|--------------------------5--7--------------7--5-----------------------------
G|--------------------4--6--------------------------6--4-----------------------
D|--------------4--7--------------------------------------7--4-----------------
A|--------4--7--------------------------------------------------7--4-----------
E|--5--7--------------------------------------------------------------7--5--7--



E|--------------------------------3--5--5--3-----------------------------------
B|--------------------------3--5--------------5--3-----------------------------
G|--------------------2--4--------------------------4--2-----------------------
D|--------------2--5--------------------------------------5--2-----------------
A|--------2--5--------------------------------------------------5--2-----------
E|--3--5--------------------------------------------------------------5--3--5--
http://www.guitartabcreator.com
Guitar Tab Creator is intended to store guitar tab created through the tool. It currently does not support in-line text editing. Any text you place in here will be lost. If you need to comment on your tab, please use the "Tab Notes" section located below.