rohan

(/) Slide Up  (\) Slide Down  (h) Hammer On  (p) Pull Off  (b) Bend (r) Release (v) Vibrato

E|------------------------------------------------------------12--12--14-------------------------------------
B|-----------------12--10--12--13---------------------12--10------10---------------------12--10--12--13------
G|--9--12--12--12------------------12--9--12--12--12----------------------9--12--12--12--------------10--12--
D|--9--------------------------10------9----------------------------------9----------------------------------
A|-----------------------------------------------------------------------------------------------------------
E|-----------------------------------------------------------------------------------------------------------



E|----------17----------------------
B|--13----------19--17--19--19------
G|--10--12------------------19--21--
D|----------------------------------
A|----------------------------------
E|----------------------------------
http://www.guitartabcreator.com
Guitar Tab Creator is intended to store guitar tab created through the tool. It currently does not support in-line text editing. Any text you place in here will be lost. If you need to comment on your tab, please use the "Tab Notes" section located below.