Trust and Obey

(/) Slide Up  (\) Slide Down  (h) Hammer On  (p) Pull Off  (b) Bend (r) Release (v) Vibrato


E|--------------------------------------------------------------------
B|--------------------------1--1-----------------3-----0-----1--------
G|-----0--2--2--0--------2--------3--2--2--2--3-----3-----2-----2--0--
D|--3--------------3--3-----------------------------------------------
A|--------------------------------------------------------------------
E|--------------------------------------------------------------------



E|-----------------------------------------------------------
B|--------1--1-----------1--1--0-----1--1--0--3--------0-----
G|-----0--------0-----------------2--------------2-----------
D|--3--------------3--3-----------------------------3-----3--
A|-----------------------------------------------------------
E|-----------------------------------------------------------



E|-----------------------------------------------------------------------
B|--1-----1-----------3-----1-----------------------1--------------------
G|-----0-----2--2--2-----2-----3--3--3--3--2--0--2--------0--2-----0-----
D|-----------------------------------------------------3--------3-----3--
A|-----------------------------------------------------------------------
E|-----------------------------------------------------------------------
http://www.guitartabcreator.com
Guitar Tab Creator is intended to store guitar tab created through the tool. It currently does not support in-line text editing. Any text you place in here will be lost. If you need to comment on your tab, please use the "Tab Notes" section located below.