song1(elec guitar1)(Riff A)

(/) Slide Up  (\) Slide Down  (h) Hammer On  (p) Pull Off  (b) Bend (r) Release (v) Vibrato


E|-----------------------------------------------------------------------------
B|--------0--------5---------8---------7--------0--------5---------------------
G|--------1--------6---------9---------8--------1--------6--7b8--7p5--7p5------
D|--------2--------7---------10--------9--------2--------7-----------------7v--
A|-----2--2-----7--7-----10--10-----9--9-----2--2-----7--7---------------------
E|--0-----0--5-----5--8------8---7-----7--0-----0--5-----5---------------------



E|-----------------------------------------------------------------------------
B|--------0--------5---------8---------7--------0--------5---------------------
G|--------1--------6---------9---------8--------1--------6--7b8--7p5--7p5------
D|--------2--------7---------10--------9--------2--------7-----------------7v--
A|-----2--2-----7--7-----10--10-----9--9-----2--2-----7--7---------------------
E|--0-----0--5-----5--8------8---7-----7--0-----0--5-----5---------------------



E|-----------------------------------------------------------------------------
B|--------0--------5---------8---------7--------0--------5---------------------
G|--------1--------6---------9---------8--------1--------6--7b8--7p5--7p5------
D|--------2--------7---------10--------9--------2--------7-----------------7v--
A|-----2--2-----7--7-----10--10-----9--9-----2--2-----7--7---------------------
E|--0-----0--5-----5--8------8---7-----7--0-----0--5-----5---------------------



E|----------------------------------------------------------------------------------
B|--------0--------5---------8---------7--------0--------5--------------------------
G|--------1--------6---------9---------8--------1--------6--7b8--7p5--7p5-----------
D|--------2--------7---------10--------9--------2--------7-----------------7--7-----
A|-----2--2-----7--7-----10--10-----9--9-----2--2-----7--7--------------------------
E|--0-----0--5-----5--8------8---7-----7--0-----0--5-----5--------------------------



E|----------------------------------------------------------------
B|-----4--5-----5--7-----7--9---------4--5-----5--7-----7--9------
G|-----4--5-----5--7-----7--9---------4--5-----5--7-----7--9--9v--
D|-----4--5-----5--7-----7--9---------4--5-----5--7-----7--9------
A|-----2--3-----3--5-----5--7--2v-----2--3-----3--5-----5--7------
E|--0--------0--------0------------0--------0--------0------------



E|--------------------------------------------------------------------
B|-----4--5-----5--7-----7--9---------4--5-----5--7-----7--9----------
G|-----4--5-----5--7-----7--9---------4--5-----5--7-----7--9----------
D|-----4--5-----5--7-----7--9---------4--5-----5--7-----7--9----------
A|-----2--3-----3--5-----5--7--3v-----2--3-----3--5-----5--7-----19v--
E|--0--------0--------0------------0--------0--------0--------0-------
http://www.guitartabcreator.com
Guitar Tab Creator is intended to store guitar tab created through the tool. It currently does not support in-line text editing. Any text you place in here will be lost. If you need to comment on your tab, please use the "Tab Notes" section located below.