Nirvanaesque

(/) Slide Up  (\) Slide Down  (h) Hammer On  (p) Pull Off  (b) Bend (r) Release (v) Vibrato
E|------------------------------------------------------------------------------
B|------------------------------------------------------------------------------
G|------------------------------------------------------------------------------
D|------------------------------------------------------------------------------
A|--3--3--3--3-7--7----3--3--3--3-7--7----3--3--3--3-7--7----3--3--3--3-7-------
E|--1--1--1--1\5--5----1--1--1--1\5--5----1--1--1--1\5--5----1--1--1--1\5-------



E|---------------------------------------------------------------------------------------------------
B|---------------------------------------------------------------------------------------------------
G|---------------------------------------------------------------------------------------------------
D|---------------------------------------------------------------------------------------------------
A|--7--6--5--6--5--4------7--6--5--6--5--4----7--6--5--6--5--4----7--6--5--6--5--4--4---4---4-----3--
E|--5--4--3--4--3--2------5--4--3--4--3--2----5--4--3--4--3--2----5--4--3--4--3--2--2h2p2h2p2h2p2/1--
http://www.guitartabcreator.com
Guitar Tab Creator is intended to store guitar tab created through the tool. It currently does not support in-line text editing. Any text you place in here will be lost. If you need to comment on your tab, please use the "Tab Notes" section located below.