Epic

(/) Slide Up  (\) Slide Down  (h) Hammer On  (p) Pull Off  (b) Bend (r) Release (v) Vibrato


E|---------------|------------------------8--8--10--10--11--11--11--10--10--8--8------------------------
B|---------------|--11--11--10--10--8--8------------------------------------------11--11--10--10--8--8--
G|---------------|--------------------------------------------------------------------------------------
D|---------------|--------------------------------------------------------------------------------------
A|---------------|--------------------------------------------------------------------------------------
E|--1--4--2b2/1--|--------------------------------------------------------------------------------------



E|--8--8--10--10--11--11--11--11--10--10--8--8------------------------8--8--10--10--11--|--------------
B|----------------------------------------------8--8--10--10--11--11--------------------|--------------
G|--------------------------------------------------------------------------------------|--------------
D|--------------------------------------------------------------------------------------|--------------
A|--------------------------------------------------------------------------------------|--1-----1-----
E|--------------------------------------------------------------------------------------|--1--1--1--1--



E|----------------|---------------
B|----------------|---------------
G|----------------|---------------
D|----------------|---------------
A|--1--4--1--4-6--|---------------
E|--1--4--1--4\6--|--4--2--1b1\2--
http://www.guitartabcreator.com
Guitar Tab Creator is intended to store guitar tab created through the tool. It currently does not support in-line text editing. Any text you place in here will be lost. If you need to comment on your tab, please use the "Tab Notes" section located below.