2-27-12

(/) Slide Up  (\) Slide Down  (h) Hammer On  (p) Pull Off  (b) Bend (r) Release (v) Vibrato

E|--5--7--5--7--5--7----------------5--7--5--7----------------5--7-----------------5--7--5--7-----
B|--5--7--5--7--5--7----------------5--7--5--7----------------5--7-----------------5--7--5--7-----
G|--5--7--5--7--5--7----------------5--7--5--7----------------5--7-----------------5--7--5--7-----
D|--5--7--5--7--5--7--3--5--6p3--3--5--7--5--7--3--5--6p3--3--5--7--7--9--10p7--7--5--7--5--7-----
A|------------------------------------------------------------------------------------------------
E|------------------------------------------------------------------------------------------------



E|-----------------5--7--5--7--3--5--3--5--5--7--5--7--3--5--3--5--5--7--5--7--3--5--3--5-----
B|-----------------5--7--5--7--3--5--3--5--5--7--5--7--3--5--3--5--5--7--5--7--3--5--3--5-----
G|-----------------5--7--5--7--3--5--3--5--5--7--5--7--3--5--3--5--5--7--5--7--3--5--3--5-----
D|--7--9--10p7--7--5--7--5--7--3--5--3--5--5--7--5--7--3--5--3--5--5--7--5--7--3--5--3--5-----
A|-----------------------------3-----3-----5-----5-----3-----3-----5-----5-----3-----3--------
E|--------------------------------------------------------------------------------------------



E|--5--7--5--7--|--
B|--5--7--5--7--|--
G|--5--7--5--7--|--
D|--5--7--5--7--|--
A|--5-----5-----|--
E|--------------|--
http://www.guitartabcreator.com
Guitar Tab Creator is intended to store guitar tab created through the tool. It currently does not support in-line text editing. Any text you place in here will be lost. If you need to comment on your tab, please use the "Tab Notes" section located below.