2-25-12

(/) Slide Up  (\) Slide Down  (h) Hammer On  (p) Pull Off  (b) Bend (r) Release (v) Vibrato

E|------------------------------------------------------
B|------------------------------------------------------
G|-----------5--3-----------------------9--7------------
D|--3--5--6--------6--5--3----7--9--10--------10--9--7--
A|------------------------------------------------------
E|------------------------------------------------------



E|----------------------------------------------------
B|----------------------------------------------------
G|-----------5--3---------------------9--7------------
D|--3--5--6--------6--5--3--7--9--10--------10--9--7--
A|----------------------------------------------------
E|----------------------------------------------------



E|------------------------------------------
B|------------------------------------------
G|-----------5--3---------------------9--7--
D|--3--5--6--------6--5--3--7--9--10--------
A|------------------------------------------
E|------------------------------------------



E|----------------------------------------------------
B|----------------------------------------------------
G|-----------5--3---------------------9--7------------
D|--3--5--6--------6--5--3--7--9--10--------10--9--7--
A|----------------------------------------------------
E|----------------------------------------------------



E|------------
B|------------
G|------------
D|------------
A|--1---------
E|-----5/6\7--



E|--------------
B|--------------
G|--------------
D|--------------
A|--1-----------
E|-----5\6\7/4--
http://www.guitartabcreator.com
Guitar Tab Creator is intended to store guitar tab created through the tool. It currently does not support in-line text editing. Any text you place in here will be lost. If you need to comment on your tab, please use the "Tab Notes" section located below.