Tail Dragger

(/) Slide Up  (\) Slide Down  (h) Hammer On  (p) Pull Off  (b) Bend (r) Release (v) Vibrato
E|----------12-------------12-12-12--------------------------------------
B|-------------------15p12-15-15-12--14-12--------12--------15b17--------
G|----14b16--------------------------------14-----12---------------------
D|-14------------------------------------------14------------------------
A|-----------------------------------------------------------------------
E|-----------------------------------------------------------------------



E|--------------------------------------------------12-------------------------------------------
B|-15-12------------------12---------------------------15-12---15b17-15b17-15b17--15-12-------12-
G|-------14-12------12h14-----12h14p12--------14b16-------------------------------------14b16----
D|-------------14----------------------14--------------------------------------------------------
A|-----------------------------------------------------------------------------------------------
E|-----------------------------------------------------------------------------------------------



E|-12----------------------------------12-------------14----16-14-16b18----14----16b18-14-
B|----12----------------------------12----15-12----14----14-------------14----14----------
G|-------14b16-14b16-14b16r14-12----------------------------------------------------------
D|----------------------------------------------------------------------------------------
A|----------------------------------------------------------------------------------------
E|----------------------------------------------------------------------------------------



E|-12----12-12----15b17r15------------------------------------------------------------
B|----12h14----14-----------15p12-----------------------------------------------------
G|--------------------------------12h14-----------------------------------------------
D|--------------------------------------14-14-14--------------------------------------
A|----------------------------------------------------------------------------------5-
E|------------------------------------------------0-0-4-4-5-5-5-6-7--7-7-7-7-7-7--7---
http://www.guitartabcreator.com
Guitar Tab Creator is intended to store guitar tab created through the tool. It currently does not support in-line text editing. Any text you place in here will be lost. If you need to comment on your tab, please use the "Tab Notes" section located below.