Get Out Of My Life Woman

(/) Slide Up  (\) Slide Down  (h) Hammer On  (p) Pull Off  (b) Bend (r) Release (v) Vibrato


E|--8-----8-------------------------------------------------8-----8--8-------------------------------------
B|--8h10-------10--8p6--------------------------------------8h10----------10--8--6-------------------------
G|----------------------7----5h7----7--7p5------------------------------------------7-------5--------------
D|------------------------------------------7----5--3------------------------------------7-----7--5--3-----
A|-----------------------------------------------------5------------------------------------------------5--
E|---------------------------------------------------------------------------------------------------------



E|-----------------------------------------------------------------------------------------------1-------------------------------------
B|-----3--3--3--3--3--3--3--3------------3--3--3--3--3--3--3--3-------------------------3--1--------3-------3--3-----------------------
G|-----------------------------0h2----4-------------------------------------------------------2----------------------------------------
D|--4------------------------------------------------------------5--3-------5--4--3--4-------------------4--------5--3-----5--3--------
A|---------------------------------------------------------------------5------------------------------------------------5--------5--3--
E|-------------------------------------------------------------------------------------------------------------------------------------



E|----------------------------------------------2-----------------
B|-------------------------------------------3-----3-----1--3-----
G|-----7----------------------------------------------2--------2--
D|--5-----6--6/5--3-----3--5--3-----0--3--4-----------------------
A|-------------------5-----------5--------------------------------
E|----------------------------------------------------------------



E|------------------------------------------------------------------
B|-------------------------------3-3-3-3-3-3-3-3----3-3-3-3-3-3-3-3-
G|------------------------------------------------------------------
D|---2-3-4-5-2-----------------4------------------4-----------------
A|-3-----------3----2-3-0-------------------------------------------
E|----------------3-------1-----------------------------------------
http://www.guitartabcreator.com
Guitar Tab Creator is intended to store guitar tab created through the tool. It currently does not support in-line text editing. Any text you place in here will be lost. If you need to comment on your tab, please use the "Tab Notes" section located below.