More Than It Seems

(/) Slide Up  (\) Slide Down  (h) Hammer On  (p) Pull Off  (b) Bend (r) Release (v) Vibrato


E|--10--11--13------13--
B|--11--11--13------13--
G|--12--12--14--15--14--
D|--12--13--15--15--15--
A|--10--13--15--13--15--
E|------11--13------13--



E|--10--13--11--
B|--11--13--11--
G|--12--14--12--
D|--12--15--13--
A|--10--15--13--
E|------13--11--



E|-----------------
B|-----------------
G|-----10----------
D|--8--10--10--13--
A|--8--8---10--13--
E|--6------8---11--



E|----------
B|----------
G|----------
D|--10--13--
A|--10--13--
E|--8---11--
http://www.guitartabcreator.com
Guitar Tab Creator is intended to store guitar tab created through the tool. It currently does not support in-line text editing. Any text you place in here will be lost. If you need to comment on your tab, please use the "Tab Notes" section located below.