Run, Run Rudolph Lead

(/) Slide Up  (\) Slide Down  (h) Hammer On  (p) Pull Off  (b) Bend (r) Release (v) Vibrato
E|--8--8--8--8--8--8--10--11--10--8--------------------8--10--8-------------
B|--8--8--8--8--8--8--10--11--10--8--11--10--8---------8--10--8--11--10--8--
G|-----------------------------------11--10--8--10b11------------11--10--8--
D|--------------------------------------------------------------------------
A|--------------------------------------------------------------------------
E|--------------------------------------------------------------------------



E|-----------------------------------------------------------------------------
B|--10--10--10--10--10---------8-----10--10--10----------10--8----------10--8--
G|--10--10--10--10--10--8------8--8--10--10--10----------10--8----------10--8--
D|-------------------------10--------------------10--10---------10--10---------
A|-----------------------------------------------------------------------------
E|-----------------------------------------------------------------------------



E|------------------------------------------------------------------------8---------
B|----------10--8------10--8------10--8------10--8------10--8------10--8--8---------
G|----------10--8------10--8------10--8------10--8------10--8------10--8-----10--8--
D|--10--10---------10---------10---------10---------10---------10-------------------
A|----------------------------------------------------------------------------------
E|----------------------------------------------------------------------------------



E|-------------------------
B|------10--8--------------
G|------10--8------10--10--
D|--10---------10--9---9---
A|-----------------10--10--
E|-------------------------
http://www.guitartabcreator.com
Guitar Tab Creator is intended to store guitar tab created through the tool. It currently does not support in-line text editing. Any text you place in here will be lost. If you need to comment on your tab, please use the "Tab Notes" section located below.