tab 3

(/) Slide Up  (\) Slide Down  (h) Hammer On  (p) Pull Off  (b) Bend (r) Release (v) Vibrato


E|--------3--------|--------3--------|--------3--3--3--|--5p3------------
B|-----1--------1--|-----1--------1--|-----3-----------|-------5--5p3\1--
G|--2--------2-----|--0--------0-----|--4--------------|-----------------
D|-----------------|-----------------|-----------------|-----------------
A|-----------------|-----------------|-----------------|-----------------
E|-----------------|-----------------|-----------------|-----------------



E|--------3--------|--------3--------|--3--|--5p3------------
B|-----1--------1--|-----1--------1--|--3--|-------5--5p3\1--
G|--2--------2-----|--0--------0-----|--4--|-----------------
D|-----------------|-----------------|--5--|-----------------
A|-----------------|-----------------|-----|-----------------
E|-----------------|-----------------|-----|-----------------
http://www.guitartabcreator.com
Guitar Tab Creator is intended to store guitar tab created through the tool. It currently does not support in-line text editing. Any text you place in here will be lost. If you need to comment on your tab, please use the "Tab Notes" section located below.