TAB 1

(/) Slide Up  (\) Slide Down  (h) Hammer On  (p) Pull Off  (b) Bend (r) Release (v) Vibrato


E|-----------------------------------------------------------------
B|-----------------------------------------------------------------
G|--9b10r7--7--7h9p7--6--7--4--4--7--9b10r7--7h9p7--6--7--4--4--7--
D|-----------------------------------------------------------------
A|-----------------------------------------------------------------
E|-----------------------------------------------------------------



E|------------------------------------------------------------------------------------------10--
B|------------------------------------------------------------------------------------------10--
G|--9b10r7--7--7h9p7------------------------------------------10--12--12b14r10--10--10--10------
D|--------------------11--11p9--9h12------------------10--12------------------------------------
A|--------------------------------------------10--12--------------------------------------------
E|------------------------------------10--13----------------------------------------------------
http://www.guitartabcreator.com
Guitar Tab Creator is intended to store guitar tab created through the tool. It currently does not support in-line text editing. Any text you place in here will be lost. If you need to comment on your tab, please use the "Tab Notes" section located below.