Vengeance

(/) Slide Up  (\) Slide Down  (h) Hammer On  (p) Pull Off  (b) Bend (r) Release (v) Vibrato
E|------------------------------------------------------------------
B|------------------------------------------------------------------
G|------------------------------------------------------------------
D|-----7--7-----3-----5-----3---------7--7-----3--------5--------3--
A|---------------------------------------------------5--------3-----
E|--0--------0-----5-----3---------0--------0-----5--------3--------



E|--------------------------------------------------------------------
B|--------------------------------------------------------------------
G|--------------------------------------------------------------------
D|-----7--7-----3-----5-----3-----------7--7-----3--------3--------5--
A|-----------------------------------------------------3--------5-----
E|--0--------0-----5-----3-----------0--------0-----3--------5--------



E|--------------------------------------|--
B|--------------------------------------|--
G|--------------------------------------|--
D|--3--3--3--3--3--3--3--3--5--5--5--5--|--
A|--3--3--3--3--3--3--3--3--5--5--5--5--|--
E|--3--3--3--3--3--3--3--3--5--5--5--5--|--



E|---------------------------------------------------------------------------------------------------
B|---------------------------------------------------------------------------------------------------
G|---------------------------------------------------------------------------------------------------
D|--7--9--7--7------7--9--7--7--7------5--7--5--5----5--7--5--5--5------3--5--3--3----3--5--3--3--3--
A|--7----------------------------------5--------------------------------3----------------------------
E|--7----------------------------------5--------------------------------3----------------------------



E|--------------------|--
B|--------------------|--
G|--------------------|--
D|--2--2--0--2--0--3--|--
A|--2--2--0--2--0--3--|--
E|--2--2--0--2--0--3--|--



E|----------------------|--
B|----------------------|--
G|--5--5--5--10--10--7--|--
D|--5--5--5--10--10--7--|--
A|--3--3--3--8---8---5--|--
E|----------------------|--



E|-----------------------------------------------------------------
B|-----------------------------------------------------------------
G|--2--2--2--2--2--3--3----3--3--3---------------------------------
D|--2--2--2--2--2--3--3----3--3--3--3--3--3--3----1--1----1--1--1--
A|--0--0--0--0--0--1--1----1--1--1--3--3--3--3----1--1----1--1--1--
E|----------------------------------3--3--3--3----1--1----1--1--1--



E|----------------------------------------------------------------------
B|----------------------------------------------------------------------
G|--2--2--2--2--2--3--3----3--3--3--------------------------------------
D|--2--2--2--2--2--3--3----3--3--3--3--3--3--3--3--6--5--5--5--5--5--5--
A|--0--0--0--0--0--1--1----1--1--1--3--3--3--3--3--6--5--5--5--5--5--5--
E|----------------------------------3--3--3--3--3--6--5--5--5--5--5--5--



E|------------------------------------------------------------------------|--
B|------------------------------------------------------------------------|--
G|------------------------5-----------------------------------------------|--
D|--3----8----7------3----5----5------8----7----3------------5----3----0--|--
A|--3----8----7------3----3----5------8----7----3------------5----3----0--|--
E|--3----8----7------3---------5------8----7----3------------5----3----0--|--



E|--
B|--
G|--
D|--
A|--
E|--
http://www.guitartabcreator.com

the tab is in DROP D, not in

the tab is in DROP D, not in standard like the tab says.
the bit after the intro (the 4th line of tab) you have to leave the chord to ring out while you play the notes on the d string. play this, and the line under it, 2 times
Feel free to add any bits in/make suggestions for changes, it would be especially awesome if a harmony was added ;)

Guitar Tab Creator is intended to store guitar tab created through the tool. It currently does not support in-line text editing. Any text you place in here will be lost. If you need to comment on your tab, please use the "Tab Notes" section located below.