alumni homecoming

(/) Slide Up  (\) Slide Down  (h) Hammer On  (p) Pull Off  (b) Bend (r) Release (v) Vibrato


E|--------------------------------------|
B|--------------------------------------|
G|----------------9----9-11p9----9-11~~-|
D|-7---7---7-9/11---11--------11--------|
A|---7---7------------------------------|
E|--------------------------------------|

E|---------12--10--9-10-----|
B|-10-9-10--------------10/-|
G|--------------------------|
D|--------------------------|
A|--------------------------|
E|--------------------------|

E|-17-16----------------|
B|-------17-------------|
G|----------16/14/13-14-|
D|----------------------|
A|----------------------|
E|----------------------|

E|----------------------------------------------------|
B|-------------------------------14-14--17b19-17b19~~-|
G|-------------14/13/14h16-p14h16---------------------|
D|-14-16p14h16----------------------------------------|
A|----------------------------------------------------|
E|----------------------------------------------------|

E|---------------------------------------------------------------------------------------|
B|----------------------------------------------------------17b19~~-17b19-17b19r17-15~~~-|
G|-----------13~~-14~~-13-14-16--16b18~~-16b18-16b18r16-14~------------------------------|
D|-14h16-16~~----------------------------------------------------------------------------|
A|---------------------------------------------------------------------------------------|
E|---------------------------------------------------------------------------------------|

E|----------------------17---------------------------------------------------------------|
B|-14-15-14-17-14-15-14------------------------------------------------------------------|
G|---------------------------------------13h14-13----------------------------------------|
D|---------------------------14----14-16----------16p14-12-11h12h14--12~~-11~~-12~~------|
A|------------------------------16-------------------------------------------------------|
E|---------------------------------------------------------------------------------------|

E|----------------------|
B|----------------------|
G|----------------------|
D|-14h15-14h15-17b19~---|
A|----------------------|
E|----------------------|
http://www.guitartabcreator.com
Guitar Tab Creator is intended to store guitar tab created through the tool. It currently does not support in-line text editing. Any text you place in here will be lost. If you need to comment on your tab, please use the "Tab Notes" section located below.