Time Of Dying

(/) Slide Up  (\) Slide Down  (h) Hammer On  (p) Pull Off  (b) Bend (r) Release (v) Vibrato

E|-----------------------------------------------------
B|-----------------------------------------------------
G|-----------------------------------------------------
D|-----------------------------------------------------
A|-----------------------------------------------------
E|--0--3--0--3--0--3--5--3--0--3--0--3--0--3--5--3--2--



E|-----------------------------------------------------
B|-----------------------------------------------------
G|-----------------------------------------------------
D|-----------------------------------------------------
A|-----------------------------------------------------
E|--0--3--0--3--0--3--5--3--0--3--0--3--0--3--5--3--2--



E|-----------------------------------------------------------------
B|-----------------------------------------------------------------
G|-----------------------------------------------------------------
D|-----------------------------------------------------------------
A|-----------------------------------------------------------------
E|--0--0--0--3--3--3--0--0--0--3--3--3--0--0--0--5--5--5--3--3--3--



E|-----------------------------------------------------------------
B|-----------------------------------------------------------------
G|-----------------------------------------------------------------
D|-----------------------------------------------------------------
A|-----------------------------------------------------------------
E|--0--0--0--3--3--3--0--0--0--3--3--3--0--0--0--5--5--5--3--3--3--



E|-----------------------------------------------------------------
B|-----------------------------------------------------------------
G|-----------------------------------------------------------------
D|-----------------------------------------------------------------
A|-----------------------------------------------------------------
E|--0--0--0--3--3--3--0--0--0--3--3--3--0--0--0--5--5--5--3--3--3--



E|--------------------------------------------------------
B|--------------------------------------------------------
G|--------------------------------------------------------
D|--------------------------------------------------------
A|--------------------------------------------------------
E|--0--0--0--2--0--3--2--0--2--0--2--0--2--0--3--2--0--0--



E|-----
B|-----
G|-----
D|-----
A|-----
E|--5--



E|-----
B|-----
G|-----
D|-----
A|-----
E|--7--



E|-----
B|-----
G|-----
D|-----
A|-----
E|--5--



E|-----
B|-----
G|-----
D|-----
A|-----
E|--0--



E|--------------------------------------------------------------------------
B|--------------------------------------------------------------------------
G|--------------------------------------------------------------------------
D|--------------------------------------------------------------------------
A|--------------------------------------------------------------------------
E|--3--2--4--3--2--3--2--4--2--4--2--0--3--2--4--3--2--3--2--4--2--4--2--0--



E|--------------------------------------------------
B|--------------------------------------------------
G|--------------------------------------------------
D|--------------------------------------------------
A|--------------------------------------------------
E|--0--3--0--3--0--3--5--3--0--3--0--3--0--3--5--2--
http://www.guitartabcreator.com
Guitar Tab Creator is intended to store guitar tab created through the tool. It currently does not support in-line text editing. Any text you place in here will be lost. If you need to comment on your tab, please use the "Tab Notes" section located below.