E minor and major pentontonic scale (1)

(/) Slide Up  (\) Slide Down  (h) Hammer On  (p) Pull Off  (b) Bend (r) Release (v) Vibrato


E|--15--12----------------------------------------------
B|----------15--12--------------------------------------
G|------------------15--14--12--------------------------
D|------------------------------14--12------------------
A|--------------------------------------14--12----------
E|----------------------------------------------15--12--



E|--12--9-------------------------------------
B|---------12--9------------------------------
G|----------------11--9-----------------------
D|-----------------------11--9----------------
A|------------------------------11--9---------
E|-------------------------------------12--9--
http://www.guitartabcreator.com
Guitar Tab Creator is intended to store guitar tab created through the tool. It currently does not support in-line text editing. Any text you place in here will be lost. If you need to comment on your tab, please use the "Tab Notes" section located below.