be free

(/) Slide Up  (\) Slide Down  (h) Hammer On  (p) Pull Off  (b) Bend (r) Release (v) Vibrato

E|----------------------------------
B|----------------------------------
G|----------------------------------
D|----------------------------------
A|--4--4--3b4/2\3/2--7--6--5--4--4--
E|--2--2-------------5--4--3--2--2--



E|---------------------------
B|---------------------------
G|---------------------------
D|--------4v-----------------
A|--4--4------7--6--5--4--4--
E|--2--2------5--4--3--2--2--



E|-----------------------------------------------------------
B|-----------------------------------------------------------
G|-----------------------------------------------------------
D|-----------------------------------------------------------
A|--4--4--0h1h3h1h3h1h3h1h3h1h3h2h4h2h4h2h4h2h4h2h4h3h5h3h5--
E|--2--2-----------------------------------------------------



E|---------------------------------------------
B|---------------------------------------------
G|---------------------------------------------
D|---------------------------------------------
A|--3h5h3h5h3h5--3h1h3h1h3h1p0--7--6--5--4--4--
E|------------------------------5--4--3--2--2--



E|-----------------------
B|-----------------------
G|-----------------------
D|-----------------------
A|--4--4--9--7--5--4--4--
E|--2--2--7--5--3--2--2--



E|-----------------------------------------------------------
B|-----------------------------------------------------------
G|-----------------------------------------------------------
D|-----------------------------------------------------------
A|--4--4/3\5/3\5\7/5\7\9/7\9\11/9\11\12b14--12b14--12b14r12--
E|--2--2-----------------------------------------------------



E|-----------------
B|-----------------
G|-----------------
D|-----------------
A|--7--6--5--4--4--
E|--5--4--3--2--2--



E|-----------------------
B|-----------------------
G|-----------------------
D|-----------------------
A|-----------------------
E|--0--3--4--5--5--4--3--



E|-------------------------------------
B|--------12--11--10--10--10--9--------
G|--9--9-------------------------9--9--
D|-------------------------------------
A|-------------------------------------
E|-------------------------------------
http://www.guitartabcreator.com
Guitar Tab Creator is intended to store guitar tab created through the tool. It currently does not support in-line text editing. Any text you place in here will be lost. If you need to comment on your tab, please use the "Tab Notes" section located below.