No.17

(/) Slide Up  (\) Slide Down  (h) Hammer On  (p) Pull Off  (b) Bend (r) Release (v) Vibrato
E|---------------------------------------------------------------7--5-----------------7/9--7------
B|--2h3--5--3--2--3--2h3p2p0--2p0-----------------------------5--------------------6--------------
G|---------------------------------2\1--2--4--4/6v------6--6---------------6--6/7-----------------
D|------------------------------------------------------------------------------------------------
A|------------------------------------------------------------------------------------------------
E|------------------------------------------------------------------------------------------------



E|--------7/9--7------0--5--4--7--5--4-----------------------------0--------2--------2/4----4--5--
B|-----6--------------------------------7--5--4--------------------2--------3--------3-5----4--5--
G|--7--------------------------------------------7----1--2---------2--------2--------2-4----5--6--
D|-----------------------------------------------------------------2--------0--------0------------
A|--------------------------------------------------------------0-----0--0-----0--0---------------
E|------------------------------------------------------------------------------------------------



E|--------0--------2--------2/4----4-------9---------9---------9------9--------9--------9-----10--
B|--------2--------3--------3-5----4----------10--------10--------10-----8--------8--------8------
G|--------2--------2--------2-4----5--------------9---------9---------------9--------9------------
D|--------2--------0--------0---------------------------------------------------------------------
A|--0--0-----0--0-----0--0------------------------------------------------------------------------
E|------------------------------------------------------------------------------------------------



E|--------10--------10-----10--------10--------10-----9---------9---------9---8--7---------------
B|--7---------7---------7------6---------6---------6-----10--------10-----10--9--5---------------
G|-----7---------7----------------7---------7----------------9---------9--9---8--7------1--2-----
D|-----------------------------------------------------------------------------------------------
A|-----------------------------------------------------------------------------------------------
E|-----------------------------------------------------------------------------------------------



E|----------5--7h8p7--5--7--5h7p5-------------------------------4--5-----
B|-------6-------------------------6--5--6p5--------------------3--5-----
G|--3/7---------------------------------------7--5--2\1--2------4--6-----
D|-----------------------------------------------------------------------
A|--------------------------------------------------------------------0--
E|-----------------------------------------------------------------------
http://www.guitartabcreator.com
Guitar Tab Creator is intended to store guitar tab created through the tool. It currently does not support in-line text editing. Any text you place in here will be lost. If you need to comment on your tab, please use the "Tab Notes" section located below.