Midnight

(/) Slide Up  (\) Slide Down  (h) Hammer On  (p) Pull Off  (b) Bend (r) Release (v) Vibrato

E|--3--------3--------2--------2--------0--------0---------------------------0--3-----------------
B|-----0--------0--------0--------0--------0--------0-----3----3p1--0-----1--------1--------1-----
G|--------0--------0--------0--------0--------0--------0---------------2--------------2--2--------
D|------------------------------------------------------------------------------------------------
A|------------------------------------------------------------------------------------------------
E|--0---------------------------------------------------------------------------------------------



E|--0--2--------------0--2--------3----2/3--------3--------2--------2--------0--------0-----------
B|--------1--------0--------0---------------0--------0--------0--------0--------0--------0-----3--
G|-----------2--0--------------0---------------0--------0--------0--------0--------0--------0-----
D|------------------------------------------------------------------------------------------------
A|------------------------------------------------------------------------------------------------
E|-------------------------------------0----------------------------------------------------------



E|----------------0--3--------------0--2--------------0--2--------3----0--------0--------0--------
B|--3p1--0-----1--------1--------1--------1--------0--------0-------------1--------1--------1-----
G|----------2--------------2--2--------------2--0--------------0-------------0--------0--------0--
D|------------------------------------------------------------------------------------------------
A|---------------------------------------------------------------------3--------------------------
E|------------------------------------------------------------------------------------------------



E|------------0--------0--------0--------0--------0--------0--------0------------------0-----------
B|--3/5--3p0-----0--------0--------0--------0--------1--------1--------1-----3/5--3p0-----0--------
G|------------------0--------0--------0--------0--------0--------0--------0------------------0-----
D|-------------------------------------------------------------------------------------------------
A|------------------------------------------------3------------------------------------------------
E|------------0------------------------------------------------------------------------0-----------



E|--0--------0--------0---------------------------------------------------------------------------
B|-----0--------0--------0--------0h1-----0h1-----0h1-----0h1-----0h1-----0h1-----0h1-----0h1-----
G|--------0--------0--------0---------------------------------------------------------------------
D|-----------------------------3-------3-------3-------3-------2-------2-------2-------2-------3--
A|------------------------------------------------------------------------------------------------
E|------------------------------------------------------------------------------------------------



E|-----------------------------------------------------------------------------------
B|--0h1-----0h1-----0h1-----0h1-----0h1-----0h1-----0h1-----0h1--------1--3--3/5--3--
G|------------------------------------------------------------------2----------------
D|-------3-------3-------3-------2-------2-------2-------2-------0-------------------
A|-----------------------------------------------------------------------------------
E|-----------------------------------------------------------------------------------
http://www.guitartabcreator.com
Guitar Tab Creator is intended to store guitar tab created through the tool. It currently does not support in-line text editing. Any text you place in here will be lost. If you need to comment on your tab, please use the "Tab Notes" section located below.