Brothers in Arms

(/) Slide Up  (\) Slide Down  (h) Hammer On  (p) Pull Off  (b) Bend (r) Release (v) Vibrato
E|---------------------------------------------------------------------
B|------------------------------------------------------4--------------
G|-------------------------3h4/6--4--3---------------4-----6------6/8--
D|-----6--8--6----6h8p6-----------------6--4--6------------------------
A|--4------------------------------------------------------------------
E|---------------------------------------------------------------------



E|---------------------------------------------------------------------
B|---------------------------------------------------------------------
G|----6b6--4h6----8p6--6h8--------8-----------------9----8--6----------
D|-----------------------------------8------6----6---------------------
A|---------------------------------------------------------------------
E|---------------------------------------------------------------------



E|---------------------------------------------------------------------------
B|---------------------------------------------------------------------4-----
G|--4p3h4/6--4--3------------------6------4--3--6--4--3-------------4-----6--
D|-----------------6--4--6--6----------------------------6--4--6-------------
A|---------------------------------------------------------------------------
E|---------------------------------------------------------------------------



E|-----------------------------------------------------------------
B|---------------------------------------7p6-----6-----------------
G|----13-11--11-------------8h9--11-----------8------------4----6--
D|----13p11--11--11h11------------------------------8--------------
A|---------------11-13---------------------------------------------
E|-----------------------------------------------------------------



E|-------------------------------------------------------------------
B|--9p7p6h7------------------------------5----4----------------------
G|-----------8----4h6----4h3---------------------6-------------------
D|-----------------------4------------6------------------------------
A|-------------------------------------------------------------------
E|-------------------------------------------------------------------



E|-----------------------------------------------------------------------
B|--4--7b7----7--4-------------------------------------------------4-----
G|------------------4--3------------3h4--6--4--3--4--3----------4-----6--
D|------------------------6--6--------------------------6--6-------------
A|-----------------------------------------------------------------------
E|-----------------------------------------------------------------------



E|--------------------------------------------------------------------
B|----------------------------------4h7-------------------------------
G|--11-----------------8--6----4h6-----------3--4--3-----4/6----------
D|--11---------6--8/9---------------------------------6---------------
A|--9-------4---------------------------------------------------------
E|--------------------------------------------------------------------



E|--------------------------------------------------------------------
B|--5p4--------4------------------------------------4h7b7------5------
G|-------6--4-----6--------9----9----1-----------4--------------------
D|-----------------------------------2--------6-----------------------
A|-----------------------------------2--------------------------------
E|-----------------------------------0--------------------------------



E|-------------------------------4h6p4--------------------------------
B|--7b7----7--4-----4--7--7b7-------------7p5----4--7p4--7p4----------
G|---------------4----------------------------------------------------
D|--------------------------------------------------------------------
A|--------------------------------------------------------------------
E|--------------------------------------------------------------------



E|-----------------------------------------------------------------------
B|--7b7----7--4----------------------------------------------------4-----
G|---------------4--3------------------4h6------6b4-------4-----4-----6--
D|---------------------6--4--6--6--------------------6-------6-----------
A|-----------------------------------------------------------------------
E|-----------------------------------------------------------------------



E|-------------------------------------------------------------------
B|-------------------------------------------------------------------
G|--8----6----4----3--------------6----6--------8--9/11--------------
D|----------------------6----4----6----6h8---------------------------
A|-------------------------------------------------------------------
E|-------------------------------------------------------------------



E|-----------------------------------------------------------------------------
B|--9b9----7h9p7----------------------------------------------9b9--9--7h9----9b
G|------------------8--------------6--8--9----8----4/6h8p6---------------------
D|------------------------------6----------------------------------------------
A|-------------------------6h7-------------------------------------------------
E|-----------------------------------------------------------------------------



E|---------------------------------------------------------------------------------
B|--7--11p9------5--4-------------5----4---------7b7----7--4-----------------------
G|---------------------6----4-------------6-------------------4--3-----------------
D|-----------------------------6------------------------------------6--4--6--6-----
A|---------------------------------------------------------------------------------
E|---------------------------------------------------------------------------------



E|-----4-----------4h6p4-----4-------4-------------------------------------------------
B|--4-----7b7-------------7-----7-------7--5p4------------7----7--7--7--7--7--7--5--5--
G|----------------------------------------------6--6------6b6--6--4--6--6--4--4--4--4--
D|-------------------------------------------------------------------------------------
A|-------------------------------------------------------------------------------------
E|-------------------------------------------------------------------------------------



E|-------------------------------------------------------4--6--7--7------------
B|----------------------------------------------------4------------------------
G|--4h6b6--4---------4--------------6--8p6--6------4---------------------------
D|----------------6-------------21--6-------6----------------------------------
A|----------------------21--21------4------------------------------------------
E|-----------------------------------------------------------------------------



E|----------------------------------------------------
B|----------------------------------------------------
G|----13----13h16--13----13--15--16--16----13---------
D|--6/13----------------------------------------------
A|----------------------------------------------------
E|----------------------------------------------------



E|---------------------------------------------------------------------------
B|---------------------------------------------------------------------------
G|--16b16------16b16----16--15p13--------------------------------------------
D|---------------------------------16p13------13-----------------------------
A|----------------------------------------16------14p13--16--14--13--11--11--
E|---------------------------------------------------------------------------
http://www.guitartabcreator.com
Guitar Tab Creator is intended to store guitar tab created through the tool. It currently does not support in-line text editing. Any text you place in here will be lost. If you need to comment on your tab, please use the "Tab Notes" section located below.