Ride Like Hell

(/) Slide Up  (\) Slide Down  (h) Hammer On  (p) Pull Off  (b) Bend (r) Release (v) Vibrato


E|-------------------------------
B|-------------------------------
G|-------------------------------
D|---2---------------------------
A|---0---3---0-------0---3---0---
E|---------------3---------------



E|---3---3---3---3---3---3---3---
B|---2---2---2---2---2---2---2---
G|---2---2---2---2---2---2---2---
D|---2---2---2---2---2---2---2---
A|-------------------------------
E|-------------------------------



E|-------------------------------------------------------------------
B|-------------------------------------------------------------------
G|-------------------------------------------------------------------
D|---7---7---9---7---7---7---9---7---7---7---9---7---7---7---9---7---
A|---5---5---5---5---5---5---5---5---5---5---5---5---5---5---5---5---
E|-------------------------------------------------------------------
http://www.guitartabcreator.com
Guitar Tab Creator is intended to store guitar tab created through the tool. It currently does not support in-line text editing. Any text you place in here will be lost. If you need to comment on your tab, please use the "Tab Notes" section located below.