You Make Me (Chorus)

(/) Slide Up  (\) Slide Down  (h) Hammer On  (p) Pull Off  (b) Bend (r) Release (v) Vibrato


E|--------------------------------------------------------------------------------------
B|-----------3-----------2-----------0-----------0-----------0-----------2-----------3--
G|--------4-----------2-----------0-----------0-----------0-----------2-----------4-----
D|-----4-----------2-----------0-----------0-----------0-----------2-----------4--------
A|--2-----------0-----------------------------------------------0-----------2-----------
E|--------------------------3-----------3-----------3-----------------------------------



E|-----------------------2--------------------------------------------------
B|-----------3--------3--------------------------0-----------0-----------0--
G|--------4--------2-----------------2--------0-----------0-----------0-----
D|-----4--------0-----------------4--------0-----------0-----------0--------
A|--2--------------------------4--------------------------------------------
E|--------------------------2-----------3-----------3-----------3-----------



E|--------------------------------------
B|-----------2-----------3-----------3--
G|--------2-----------4-----------4-----
D|-----2-----------4-----------4--------
A|--0-----------2-----------2-----------
E|--------------------------------------
http://www.guitartabcreator.com
Guitar Tab Creator is intended to store guitar tab created through the tool. It currently does not support in-line text editing. Any text you place in here will be lost. If you need to comment on your tab, please use the "Tab Notes" section located below.