Money For Nothing

(/) Slide Up  (\) Slide Down  (h) Hammer On  (p) Pull Off  (b) Bend (r) Release (v) Vibrato


E|--------------------------------------------------------------------------------------------
B|--------------6-----------------------------------------------------------8-----------------
G|--7--7--5--7--5--5--7--5--3--0--0--0--3-----3--5--3--0--7--7--5--7--7--7-----5--7--5--3--0--
D|--5--5--5--5-----5--5--5--3--0--0--0--3--0--3--5--3--0--5--5--5--5--5--5-----5--5--5--3--0--
A|--------------------------------------------------------------------------------------------
E|--------------------------------------------------------------------------------------------



E|--------------------------
B|--------------------------
G|--0--0--3--0--------------
D|--0--0--3--0--0--3--5--5--
A|--------------0--3--5--5--
E|--------------------------
http://www.guitartabcreator.com
Guitar Tab Creator is intended to store guitar tab created through the tool. It currently does not support in-line text editing. Any text you place in here will be lost. If you need to comment on your tab, please use the "Tab Notes" section located below.