Halloween Theme Tune

(/) Slide Up  (\) Slide Down  (h) Hammer On  (p) Pull Off  (b) Bend (r) Release (v) Vibrato


E|--9--------9--------9-----10-----
B|-----7--7-----7--7-----7------7--
G|---------------------------------
D|---------------------------------
A|---------------------------------
E|---------------------------------



E|--8--7--6--
B|--6--5--4--
G|-----------
D|-----------
A|-----------
E|-----------



E|--2--------2--------2-----3-----
B|-----0--0-----0--0-----0-----0--
G|--------------------------------
D|--------------------------------
A|--------------------------------
E|--------------------------------
http://www.guitartabcreator.com
Guitar Tab Creator is intended to store guitar tab created through the tool. It currently does not support in-line text editing. Any text you place in here will be lost. If you need to comment on your tab, please use the "Tab Notes" section located below.